ISO-10303-21;
HEADER;
FILE_DESCRIPTION (( 'STEP AP214' ),
    '1' );
FILE_NAME ('1590939_SP2-QR24.STEP',
    '2021-11-29T12:30:25',
    ( '' ),
    ( '' ),
    'SwSTEP 2.0',
    'SolidWorks 2019',
    '' );
FILE_SCHEMA (( 'AUTOMOTIVE_DESIGN' ));
ENDSEC;

DATA;
#1 = AXIS2_PLACEMENT_3D ( 'NONE', #235, #32, #102 ) ;
#2 = DIRECTION ( 'NONE',  ( 0.000000000000000000, 0.000000000000000000, -1.000000000000000000 ) ) ;
#3 = VERTEX_POINT ( 'NONE', #73 ) ;
#4 = EDGE_CURVE ( 'NONE', #72, #72, #145, .T. ) ;
#5 = EDGE_LOOP ( 'NONE', ( #168 ) ) ;
#6 = CIRCLE ( 'NONE', #121, 11.00000000000000000 ) ;
#7 = EDGE_LOOP ( 'NONE', ( #94 ) ) ;
#8 = ORIENTED_EDGE ( 'NONE', *, *, #86, .T. ) ;
#9 = DIRECTION ( 'NONE',  ( 0.000000000000000000, 0.000000000000000000, -1.000000000000000000 ) ) ;
#10 = FACE_BOUND ( 'NONE', #56, .T. ) ;
#11 = CARTESIAN_POINT ( 'NONE',  ( 0.000000000000000000, 0.000000000000000000, 0.000000000000000000 ) ) ;
#12 = PRODUCT_DEFINITION_CONTEXT ( 'detailed design', #192, 'design' ) ;
#13 = DIRECTION ( 'NONE',  ( 0.000000000000000000, 0.000000000000000000, -1.000000000000000000 ) ) ;
#14 = DIRECTION ( 'NONE',  ( 0.000000000000000000, 1.000000000000000000, 0.000000000000000000 ) ) ;
#15 = CARTESIAN_POINT ( 'NONE',  ( 28.14582562299418456, 2.000000000000000000, 18.50000000000013145 ) ) ;
#16 = DIRECTION ( 'NONE',  ( -0.000000000000000000, -1.000000000000000000, -0.000000000000000000 ) ) ;
#17 = CARTESIAN_POINT ( 'NONE',  ( 0.000000000000000000, 0.000000000000000000, 0.000000000000000000 ) ) ;
#18 = STYLED_ITEM ( 'NONE', ( #35 ), #107 ) ;
#19 = FACE_OUTER_BOUND ( 'NONE', #74, .T. ) ;
#20 = VERTEX_POINT ( 'NONE', #216 ) ;
#21 = MANIFOLD_SOLID_BREP ( 'Aufsatz-Linear austragen1', #204 ) ;
#22 = APPLICATION_PROTOCOL_DEFINITION ( 'draft international standard', 'automotive_design', 1998, #179 ) ;
#23 = ORIENTED_EDGE ( 'NONE', *, *, #171, .F. ) ;
#24 = CYLINDRICAL_SURFACE ( 'NONE', #208, 2.250000000000001776 ) ;
#25 = PRESENTATION_STYLE_ASSIGNMENT (( #114 ) ) ;
#26 =( LENGTH_UNIT ( ) NAMED_UNIT ( * ) SI_UNIT ( .MILLI., .METRE. ) );
#27 = ORIENTED_EDGE ( 'NONE', *, *, #109, .T. ) ;
#28 = CARTESIAN_POINT ( 'NONE',  ( 0.000000000000000000, 2.000000000000000000, 0.000000000000000000 ) ) ;
#29 = FACE_OUTER_BOUND ( 'NONE', #184, .T. ) ;
#30 = AXIS2_PLACEMENT_3D ( 'NONE', #104, #230, #177 ) ;
#31 = DIRECTION ( 'NONE',  ( -0.000000000000000000, -1.000000000000000000, -0.000000000000000000 ) ) ;
#32 = DIRECTION ( 'NONE',  ( 0.000000000000000000, 1.000000000000000000, 0.000000000000000000 ) ) ;
#33 = FACE_BOUND ( 'NONE', #156, .T. ) ;
#34 = SURFACE_SIDE_STYLE ('',( #200 ) ) ;
#35 = PRESENTATION_STYLE_ASSIGNMENT (( #201 ) ) ;
#36 = CARTESIAN_POINT ( 'NONE',  ( -28.14582562299418456, 2.000000000000000000, 16.25000000000013145 ) ) ;
#37 = AXIS2_PLACEMENT_3D ( 'NONE', #119, #196, #122 ) ;
#38 = ADVANCED_FACE ( 'NONE', ( #232, #68 ), #24, .F. ) ;
#39 = FILL_AREA_STYLE_COLOUR ( '', #120 ) ;
#40 = EDGE_LOOP ( 'NONE', ( #8 ) ) ;
#41 = EDGE_LOOP ( 'NONE', ( #61 ) ) ;
#42 = PRODUCT_RELATED_PRODUCT_CATEGORY ( 'part', '', ( #197 ) ) ;
#43 = CARTESIAN_POINT ( 'NONE',  ( 0.000000000000000000, 0.000000000000000000, 0.000000000000000000 ) ) ;
#44 = DIRECTION ( 'NONE',  ( 0.000000000000000000, 0.000000000000000000, 1.000000000000000000 ) ) ;
#45 = DIRECTION ( 'NONE',  ( 0.000000000000000000, 0.000000000000000000, 1.000000000000000000 ) ) ;
#46 = ADVANCED_FACE ( 'NONE', ( #138, #191, #103, #85, #142 ), #118, .F. ) ;
#47 = MECHANICAL_DESIGN_GEOMETRIC_PRESENTATION_REPRESENTATION (  '', ( #18 ), #135 ) ;
#48 = AXIS2_PLACEMENT_3D ( 'NONE', #181, #16, #2 ) ;
#49 = DIRECTION ( 'NONE',  ( 0.000000000000000000, 1.000000000000000000, 0.000000000000000000 ) ) ;
#50 = DIRECTION ( 'NONE',  ( 0.000000000000000000, 0.000000000000000000, 1.000000000000000000 ) ) ;
#51 = DIRECTION ( 'NONE',  ( 0.000000000000000000, 1.000000000000000000, 0.000000000000000000 ) ) ;
#52 = UNCERTAINTY_MEASURE_WITH_UNIT (LENGTH_MEASURE( 1.000000000000000082E-05 ), #144, 'distance_accuracy_value', 'NONE');
#53 = VERTEX_POINT ( 'NONE', #129 ) ;
#54 =( NAMED_UNIT ( * ) SI_UNIT ( $, .STERADIAN. ) SOLID_ANGLE_UNIT ( ) );
#55 = CARTESIAN_POINT ( 'NONE',  ( 28.14582562299418456, 0.000000000000000000, 18.50000000000013145 ) ) ;
#56 = EDGE_LOOP ( 'NONE', ( #228 ) ) ;
#57 = AXIS2_PLACEMENT_3D ( 'NONE', #43, #117, #44 ) ;
#58 = ORIENTED_EDGE ( 'NONE', *, *, #189, .T. ) ;
#59 = CIRCLE ( 'NONE', #229, 2.249999999999998668 ) ;
#60 = SURFACE_STYLE_FILL_AREA ( #113 ) ;
#61 = ORIENTED_EDGE ( 'NONE', *, *, #86, .F. ) ;
#62 = EDGE_CURVE ( 'NONE', #162, #162, #6, .T. ) ;
#63 = EDGE_LOOP ( 'NONE', ( #226 ) ) ;
#64 = CIRCLE ( 'NONE', #93, 2.249999999999998668 ) ;
#65 = CARTESIAN_POINT ( 'NONE',  ( 0.000000000000000000, 0.000000000000000000, 0.000000000000000000 ) ) ;
#66 = DIRECTION ( 'NONE',  ( 0.000000000000000000, 1.000000000000000000, 0.000000000000000000 ) ) ;
#67 = DIRECTION ( 'NONE',  ( 0.000000000000000000, 1.000000000000000000, 0.000000000000000000 ) ) ;
#68 = FACE_OUTER_BOUND ( 'NONE', #169, .T. ) ;
#69 = PLANE ( 'NONE',  #30 ) ;
#70 = FACE_OUTER_BOUND ( 'NONE', #41, .T. ) ;
#71 = DIRECTION ( 'NONE',  ( 0.000000000000000000, 0.000000000000000000, -1.000000000000000000 ) ) ;
#72 = VERTEX_POINT ( 'NONE', #92 ) ;
#73 = CARTESIAN_POINT ( 'NONE',  ( 0.000000000000000000, 0.000000000000000000, -30.25000000000000000 ) ) ;
#74 = EDGE_LOOP ( 'NONE', ( #77 ) ) ;
#75 = EDGE_LOOP ( 'NONE', ( #155 ) ) ;
#76 = CIRCLE ( 'NONE', #170, 2.249999999999998668 ) ;
#77 = ORIENTED_EDGE ( 'NONE', *, *, #137, .F. ) ;
#78 = AXIS2_PLACEMENT_3D ( 'NONE', #65, #51, #125 ) ;
#79 = ORIENTED_EDGE ( 'NONE', *, *, #178, .T. ) ;
#80 = EDGE_CURVE ( 'NONE', #147, #147, #185, .T. ) ;
#81 = ORIENTED_EDGE ( 'NONE', *, *, #80, .F. ) ;
#82 = CARTESIAN_POINT ( 'NONE',  ( 0.000000000000000000, 0.000000000000000000, -32.50000000000000000 ) ) ;
#83 =( NAMED_UNIT ( * ) SI_UNIT ( $, .STERADIAN. ) SOLID_ANGLE_UNIT ( ) );
#84 = CARTESIAN_POINT ( 'NONE',  ( 0.000000000000000000, 2.000000000000000000, -32.50000000000000000 ) ) ;
#85 = FACE_BOUND ( 'NONE', #40, .T. ) ;
#86 = EDGE_CURVE ( 'NONE', #148, #148, #64, .T. ) ;
#87 = FILL_AREA_STYLE ('',( #126 ) ) ;
#88 = DIRECTION ( 'NONE',  ( -0.000000000000000000, -1.000000000000000000, -0.000000000000000000 ) ) ;
#89 = CYLINDRICAL_SURFACE ( 'NONE', #48, 2.249999999999998668 ) ;
#90 = AXIS2_PLACEMENT_3D ( 'NONE', #195, #31, #9 ) ;
#91 = CARTESIAN_POINT ( 'NONE',  ( 0.000000000000000000, 2.000000000000000000, -30.25000000000000000 ) ) ;
#92 = CARTESIAN_POINT ( 'NONE',  ( -28.14582562299418456, 2.000000000000000000, 14.00000000000013323 ) ) ;
#93 = AXIS2_PLACEMENT_3D ( 'NONE', #231, #67, #139 ) ;
#94 = ORIENTED_EDGE ( 'NONE', *, *, #171, .T. ) ;
#95 = EDGE_CURVE ( 'NONE', #20, #20, #59, .T. ) ;
#96 = EDGE_LOOP ( 'NONE', ( #27 ) ) ;
#97 = ORIENTED_EDGE ( 'NONE', *, *, #109, .F. ) ;
#98 = DIRECTION ( 'NONE',  ( 0.000000000000000000, 0.000000000000000000, 1.000000000000000000 ) ) ;
#99 = CYLINDRICAL_SURFACE ( 'NONE', #90, 11.00000000000000000 ) ;
#100 =( GEOMETRIC_REPRESENTATION_CONTEXT ( 3 ) GLOBAL_UNCERTAINTY_ASSIGNED_CONTEXT ( ( #123 ) ) GLOBAL_UNIT_ASSIGNED_CONTEXT ( ( #26, #211, #83 ) ) REPRESENTATION_CONTEXT ( 'NONE', 'WORKASPACE' ) );
#101 = ADVANCED_FACE ( 'NONE', ( #29, #175 ), #99, .F. ) ;
#102 = DIRECTION ( 'NONE',  ( 0.000000000000000000, 0.000000000000000000, 1.000000000000000000 ) ) ;
#103 = FACE_BOUND ( 'NONE', #157, .T. ) ;
#104 = CARTESIAN_POINT ( 'NONE',  ( 0.000000000000000000, 2.000000000000000000, 0.000000000000000000 ) ) ;
#105 = DIRECTION ( 'NONE',  ( 0.000000000000000000, 0.000000000000000000, -1.000000000000000000 ) ) ;
#106 = CARTESIAN_POINT ( 'NONE',  ( 0.000000000000000000, 2.000000000000000000, 37.00000000000000000 ) ) ;
#107 = ADVANCED_BREP_SHAPE_REPRESENTATION ( '1590939_SP2-QR24', ( #21, #188 ), #127 ) ;
#108 = FACE_OUTER_BOUND ( 'NONE', #96, .T. ) ;
#109 = EDGE_CURVE ( 'NONE', #182, #182, #76, .T. ) ;
#110 = ORIENTED_EDGE ( 'NONE', *, *, #95, .F. ) ;
#111 = CIRCLE ( 'NONE', #154, 2.250000000000001776 ) ;
#112 = DIRECTION ( 'NONE',  ( 0.000000000000000000, 1.000000000000000000, -0.000000000000000000 ) ) ;
#113 = FILL_AREA_STYLE ('',( #39 ) ) ;
#114 = SURFACE_STYLE_USAGE ( .BOTH. , #187 ) ;
#115 = PRODUCT_DEFINITION_FORMATION_WITH_SPECIFIED_SOURCE ( 'ANY', '', #197, .NOT_KNOWN. ) ;
#116 = EDGE_LOOP ( 'NONE', ( #210 ) ) ;
#117 = DIRECTION ( 'NONE',  ( 0.000000000000000000, 1.000000000000000000, 0.000000000000000000 ) ) ;
#118 = PLANE ( 'NONE',  #78 ) ;
#119 = CARTESIAN_POINT ( 'NONE',  ( 0.000000000000000000, 2.000000000000000000, -32.50000000000000000 ) ) ;
#120 = COLOUR_RGB ( '',0.7921568627450980005, 0.8196078431372548767, 0.9333333333333333481 ) ;
#121 = AXIS2_PLACEMENT_3D ( 'NONE', #11, #14, #215 ) ;
#122 = DIRECTION ( 'NONE',  ( 0.000000000000000000, 0.000000000000000000, 1.000000000000000000 ) ) ;
#123 = UNCERTAINTY_MEASURE_WITH_UNIT (LENGTH_MEASURE( 1.000000000000000082E-05 ), #26, 'distance_accuracy_value', 'NONE');
#124 = APPLICATION_PROTOCOL_DEFINITION ( 'draft international standard', 'automotive_design', 1998, #192 ) ;
#125 = DIRECTION ( 'NONE',  ( 0.000000000000000000, -0.000000000000000000, 1.000000000000000000 ) ) ;
#126 = FILL_AREA_STYLE_COLOUR ( '', #224 ) ;
#127 =( GEOMETRIC_REPRESENTATION_CONTEXT ( 3 ) GLOBAL_UNCERTAINTY_ASSIGNED_CONTEXT ( ( #52 ) ) GLOBAL_UNIT_ASSIGNED_CONTEXT ( ( #144, #167, #54 ) ) REPRESENTATION_CONTEXT ( 'NONE', 'WORKASPACE' ) );
#128 = SHAPE_DEFINITION_REPRESENTATION ( #183, #107 ) ;
#129 = CARTESIAN_POINT ( 'NONE',  ( 0.000000000000000000, 2.000000000000000000, 11.00000000000000000 ) ) ;
#130 = CARTESIAN_POINT ( 'NONE',  ( 0.000000000000000000, 0.000000000000000000, 11.00000000000000000 ) ) ;
#131 = ORIENTED_EDGE ( 'NONE', *, *, #95, .T. ) ;
#132 = PRESENTATION_LAYER_ASSIGNMENT (  '', '', ( #140 ) ) ;
#133 = EDGE_LOOP ( 'NONE', ( #97 ) ) ;
#134 = ORIENTED_EDGE ( 'NONE', *, *, #178, .F. ) ;
#135 =( GEOMETRIC_REPRESENTATION_CONTEXT ( 3 ) GLOBAL_UNCERTAINTY_ASSIGNED_CONTEXT ( ( #198 ) ) GLOBAL_UNIT_ASSIGNED_CONTEXT ( ( #202, #222, #150 ) ) REPRESENTATION_CONTEXT ( 'NONE', 'WORKASPACE' ) );
#136 = CARTESIAN_POINT ( 'NONE',  ( -28.14582562299418456, 2.000000000000000000, 16.25000000000013145 ) ) ;
#137 = EDGE_CURVE ( 'NONE', #146, #146, #141, .T. ) ;
#138 = FACE_OUTER_BOUND ( 'NONE', #206, .T. ) ;
#139 = DIRECTION ( 'NONE',  ( 0.000000000000000000, 0.000000000000000000, 1.000000000000000000 ) ) ;
#140 = STYLED_ITEM ( 'NONE', ( #25 ), #21 ) ;
#141 = CIRCLE ( 'NONE', #1, 37.00000000000000000 ) ;
#142 = FACE_BOUND ( 'NONE', #209, .T. ) ;
#143 = CYLINDRICAL_SURFACE ( 'NONE', #163, 37.00000000000000000 ) ;
#144 =( LENGTH_UNIT ( ) NAMED_UNIT ( * ) SI_UNIT ( .MILLI., .METRE. ) );
#145 = CIRCLE ( 'NONE', #164, 2.249999999999998668 ) ;
#146 = VERTEX_POINT ( 'NONE', #106 ) ;
#147 = VERTEX_POINT ( 'NONE', #91 ) ;
#148 = VERTEX_POINT ( 'NONE', #55 ) ;
#149 = ADVANCED_FACE ( 'NONE', ( #176, #33, #173, #158, #10 ), #69, .T. ) ;
#150 =( NAMED_UNIT ( * ) SI_UNIT ( $, .STERADIAN. ) SOLID_ANGLE_UNIT ( ) );
#151 = ORIENTED_EDGE ( 'NONE', *, *, #62, .F. ) ;
#152 = EDGE_LOOP ( 'NONE', ( #110 ) ) ;
#153 = PRESENTATION_LAYER_ASSIGNMENT (  '', '', ( #18 ) ) ;
#154 = AXIS2_PLACEMENT_3D ( 'NONE', #82, #193, #45 ) ;
#155 = ORIENTED_EDGE ( 'NONE', *, *, #4, .T. ) ;
#156 = EDGE_LOOP ( 'NONE', ( #134 ) ) ;
#157 = EDGE_LOOP ( 'NONE', ( #58 ) ) ;
#158 = FACE_BOUND ( 'NONE', #227, .T. ) ;
#159 = DIRECTION ( 'NONE',  ( -0.000000000000000000, -1.000000000000000000, -0.000000000000000000 ) ) ;
#160 = CARTESIAN_POINT ( 'NONE',  ( 28.14582562299418456, 2.000000000000000000, 16.25000000000013145 ) ) ;
#161 = FACE_OUTER_BOUND ( 'NONE', #7, .T. ) ;
#162 = VERTEX_POINT ( 'NONE', #130 ) ;
#163 = AXIS2_PLACEMENT_3D ( 'NONE', #220, #217, #71 ) ;
#164 = AXIS2_PLACEMENT_3D ( 'NONE', #136, #112, #186 ) ;
#165 = DIRECTION ( 'NONE',  ( 1.000000000000000000, 0.000000000000000000, 0.000000000000000000 ) ) ;
#166 = CYLINDRICAL_SURFACE ( 'NONE', #207, 2.249999999999998668 ) ;
#167 =( NAMED_UNIT ( * ) PLANE_ANGLE_UNIT ( ) SI_UNIT ( $, .RADIAN. ) );
#168 = ORIENTED_EDGE ( 'NONE', *, *, #62, .T. ) ;
#169 = EDGE_LOOP ( 'NONE', ( #223 ) ) ;
#170 = AXIS2_PLACEMENT_3D ( 'NONE', #160, #49, #213 ) ;
#171 = EDGE_CURVE ( 'NONE', #221, #221, #174, .T. ) ;
#172 = DIRECTION ( 'NONE',  ( 0.000000000000000000, 0.000000000000000000, -1.000000000000000000 ) ) ;
#173 = FACE_OUTER_BOUND ( 'NONE', #116, .T. ) ;
#174 = CIRCLE ( 'NONE', #57, 37.00000000000000000 ) ;
#175 = FACE_OUTER_BOUND ( 'NONE', #190, .T. ) ;
#176 = FACE_BOUND ( 'NONE', #133, .T. ) ;
#177 = DIRECTION ( 'NONE',  ( 0.000000000000000000, -0.000000000000000000, 1.000000000000000000 ) ) ;
#178 = EDGE_CURVE ( 'NONE', #53, #53, #218, .T. ) ;
#179 = APPLICATION_CONTEXT ( 'automotive_design' ) ;
#180 = PRODUCT_DEFINITION ( 'UNKNOWN', '', #115, #12 ) ;
#181 = CARTESIAN_POINT ( 'NONE',  ( 28.14582562299418456, 2.000000000000000000, 16.25000000000013145 ) ) ;
#182 = VERTEX_POINT ( 'NONE', #15 ) ;
#183 = PRODUCT_DEFINITION_SHAPE ( 'NONE', 'NONE',  #180 ) ;
#184 = EDGE_LOOP ( 'NONE', ( #79 ) ) ;
#185 = CIRCLE ( 'NONE', #37, 2.250000000000001776 ) ;
#186 = DIRECTION ( 'NONE',  ( 0.000000000000000000, 0.000000000000000000, -1.000000000000000000 ) ) ;
#187 = SURFACE_SIDE_STYLE ('',( #60 ) ) ;
#188 = AXIS2_PLACEMENT_3D ( 'NONE', #17, #50, #165 ) ;
#189 = EDGE_CURVE ( 'NONE', #3, #3, #111, .T. ) ;
#190 = EDGE_LOOP ( 'NONE', ( #151 ) ) ;
#191 = FACE_BOUND ( 'NONE', #5, .T. ) ;
#192 = APPLICATION_CONTEXT ( 'automotive_design' ) ;
#193 = DIRECTION ( 'NONE',  ( 0.000000000000000000, 1.000000000000000000, 0.000000000000000000 ) ) ;
#194 = MECHANICAL_DESIGN_GEOMETRIC_PRESENTATION_REPRESENTATION (  '', ( #140 ), #100 ) ;
#195 = CARTESIAN_POINT ( 'NONE',  ( 0.000000000000000000, 2.000000000000000000, 0.000000000000000000 ) ) ;
#196 = DIRECTION ( 'NONE',  ( 0.000000000000000000, 1.000000000000000000, 0.000000000000000000 ) ) ;
#197 = PRODUCT ( '1590939_SP2-QR24', '1590939_SP2-QR24', '', ( #234 ) ) ;
#198 = UNCERTAINTY_MEASURE_WITH_UNIT (LENGTH_MEASURE( 1.000000000000000082E-05 ), #202, 'distance_accuracy_value', 'NONE');
#199 = ADVANCED_FACE ( 'NONE', ( #108, #70 ), #89, .F. ) ;
#200 = SURFACE_STYLE_FILL_AREA ( #87 ) ;
#201 = SURFACE_STYLE_USAGE ( .BOTH. , #34 ) ;
#202 =( LENGTH_UNIT ( ) NAMED_UNIT ( * ) SI_UNIT ( .MILLI., .METRE. ) );
#203 = FACE_OUTER_BOUND ( 'NONE', #75, .T. ) ;
#204 = CLOSED_SHELL ( 'NONE', ( #149, #46, #233, #101, #38, #199, #205 ) ) ;
#205 = ADVANCED_FACE ( 'NONE', ( #203, #236 ), #166, .F. ) ;
#206 = EDGE_LOOP ( 'NONE', ( #23 ) ) ;
#207 = AXIS2_PLACEMENT_3D ( 'NONE', #36, #88, #105 ) ;
#208 = AXIS2_PLACEMENT_3D ( 'NONE', #84, #159, #13 ) ;
#209 = EDGE_LOOP ( 'NONE', ( #131 ) ) ;
#210 = ORIENTED_EDGE ( 'NONE', *, *, #137, .T. ) ;
#211 =( NAMED_UNIT ( * ) PLANE_ANGLE_UNIT ( ) SI_UNIT ( $, .RADIAN. ) );
#212 = CARTESIAN_POINT ( 'NONE',  ( -28.14582562299418456, 0.000000000000000000, 16.25000000000013145 ) ) ;
#213 = DIRECTION ( 'NONE',  ( 0.000000000000000000, 0.000000000000000000, 1.000000000000000000 ) ) ;
#214 = DIRECTION ( 'NONE',  ( 0.000000000000000000, 1.000000000000000000, -0.000000000000000000 ) ) ;
#215 = DIRECTION ( 'NONE',  ( 0.000000000000000000, 0.000000000000000000, 1.000000000000000000 ) ) ;
#216 = CARTESIAN_POINT ( 'NONE',  ( -28.14582562299418456, 0.000000000000000000, 14.00000000000013323 ) ) ;
#217 = DIRECTION ( 'NONE',  ( -0.000000000000000000, -1.000000000000000000, -0.000000000000000000 ) ) ;
#218 = CIRCLE ( 'NONE', #225, 11.00000000000000000 ) ;
#219 = CARTESIAN_POINT ( 'NONE',  ( 0.000000000000000000, 0.000000000000000000, 37.00000000000000000 ) ) ;
#220 = CARTESIAN_POINT ( 'NONE',  ( 0.000000000000000000, 2.000000000000000000, 0.000000000000000000 ) ) ;
#221 = VERTEX_POINT ( 'NONE', #219 ) ;
#222 =( NAMED_UNIT ( * ) PLANE_ANGLE_UNIT ( ) SI_UNIT ( $, .RADIAN. ) );
#223 = ORIENTED_EDGE ( 'NONE', *, *, #189, .F. ) ;
#224 = COLOUR_RGB ( '',0.7921568627450980005, 0.8196078431372548767, 0.9333333333333333481 ) ;
#225 = AXIS2_PLACEMENT_3D ( 'NONE', #28, #66, #98 ) ;
#226 = ORIENTED_EDGE ( 'NONE', *, *, #80, .T. ) ;
#227 = EDGE_LOOP ( 'NONE', ( #81 ) ) ;
#228 = ORIENTED_EDGE ( 'NONE', *, *, #4, .F. ) ;
#229 = AXIS2_PLACEMENT_3D ( 'NONE', #212, #214, #172 ) ;
#230 = DIRECTION ( 'NONE',  ( 0.000000000000000000, 1.000000000000000000, 0.000000000000000000 ) ) ;
#231 = CARTESIAN_POINT ( 'NONE',  ( 28.14582562299418456, 0.000000000000000000, 16.25000000000013145 ) ) ;
#232 = FACE_OUTER_BOUND ( 'NONE', #63, .T. ) ;
#233 = ADVANCED_FACE ( 'NONE', ( #19, #161 ), #143, .T. ) ;
#234 = PRODUCT_CONTEXT ( 'NONE', #179, 'mechanical' ) ;
#235 = CARTESIAN_POINT ( 'NONE',  ( 0.000000000000000000, 2.000000000000000000, 0.000000000000000000 ) ) ;
#236 = FACE_OUTER_BOUND ( 'NONE', #152, .T. ) ;
ENDSEC;
END-ISO-10303-21;
